  0
SECTION
  2
HEADER
  9
$ACADVER
  1
AC1015
  9
$ACADMAINTVER
 70
     6
  9
$DWGCODEPAGE
  3
ANSI_1254
  9
$INSBASE
 10
0.0
 20
0.0
 30
0.0
  9
$EXTMIN
 10
0.0
 20
0.0
 30
0.0
  9
$EXTMAX
 10
279.4
 20
215.9
 30
0.0
  9
$LIMMIN
 10
0.0
 20
0.0
  9
$LIMMAX
 10
279.4
 20
215.9
  9
$ORTHOMODE
 70
     0
  9
$REGENMODE
 70
     1
  9
$FILLMODE
 70
     1
  9
$QTEXTMODE
 70
     0
  9
$MIRRTEXT
 70
     1
  9
$LTSCALE
 40
1.0
  9
$ATTMODE
 70
     1
  9
$TEXTSIZE
 40
3.5
  9
$TRACEWID
 40
1.0
  9
$TEXTSTYLE
  7
Standard
  9
$CLAYER
  8
0
  9
$CELTYPE
  6
ByLayer
  9
$CECOLOR
 62
   256
  9
$CELTSCALE
 40
1.0
  9
$DISPSILH
 70
     0
  9
$DIMSCALE
 40
1.0
  9
$DIMASZ
 40
3.5
  9
$DIMEXO
 40
1.0
  9
$DIMDLI
 40
3.75
  9
$DIMRND
 40
0.0
  9
$DIMDLE
 40
0.0
  9
$DIMEXE
 40
1.0
  9
$DIMTP
 40
0.0
  9
$DIMTM
 40
0.0
  9
$DIMTXT
 40
3.5
  9
$DIMCEN
 40
2.5
  9
$DIMTSZ
 40
0.0
  9
$DIMTOL
 70
     0
  9
$DIMLIM
 70
     0
  9
$DIMTIH
 70
     1
  9
$DIMTOH
 70
     1
  9
$DIMSE1
 70
     0
  9
$DIMSE2
 70
     0
  9
$DIMTAD
 70
     1
  9
$DIMZIN
 70
     0
  9
$DIMBLK
  1

  9
$DIMASO
 70
     1
  9
$DIMSHO
 70
     1
  9
$DIMPOST
  1

  9
$DIMAPOST
  1

  9
$DIMALT
 70
     0
  9
$DIMALTD
 70
     3
  9
$DIMALTF
 40
0.0393700787
  9
$DIMLFAC
 40
1.0
  9
$DIMTOFL
 70
     1
  9
$DIMTVP
 40
0.0
  9
$DIMTIX
 70
     0
  9
$DIMSOXD
 70
     0
  9
$DIMSAH
 70
     0
  9
$DIMBLK1
  1

  9
$DIMBLK2
  1

  9
$DIMSTYLE
  2
ISO-25
  9
$DIMCLRD
 70
     0
  9
$DIMCLRE
 70
     0
  9
$DIMCLRT
 70
     0
  9
$DIMTFAC
 40
1.0
  9
$DIMGAP
 40
1.524
  9
$DIMJUST
 70
     0
  9
$DIMSD1
 70
     0
  9
$DIMSD2
 70
     0
  9
$DIMTOLJ
 70
     0
  9
$DIMTZIN
 70
     0
  9
$DIMALTZ
 70
     0
  9
$DIMALTTZ
 70
     0
  9
$DIMUPT
 70
     0
  9
$DIMDEC
 70
     2
  9
$DIMTDEC
 70
     2
  9
$DIMALTU
 70
     2
  9
$DIMALTTD
 70
     3
  9
$DIMTXSTY
  7
Standard
  9
$DIMAUNIT
 70
     0
  9
$DIMADEC
 70
     2
  9
$DIMALTRND
 40
0.0
  9
$DIMAZIN
 70
     0
  9
$DIMDSEP
 70
    44
  9
$DIMATFIT
 70
     3
  9
$DIMFRAC
 70
     0
  9
$DIMLDRBLK
  1

  9
$DIMLUNIT
 70
     2
  9
$DIMLWD
 70
    -2
  9
$DIMLWE
 70
    -2
  9
$DIMTMOVE
 70
     0
  9
$LUNITS
 70
     2
  9
$LUPREC
 70
     2
  9
$SKETCHINC
 40
1.0
  9
$FILLETRAD
 40
10.0
  9
$AUNITS
 70
     0
  9
$AUPREC
 70
     2
  9
$MENU
  1
.
  9
$ELEVATION
 40
0.0
  9
$PELEVATION
 40
0.0
  9
$THICKNESS
 40
0.0
  9
$LIMCHECK
 70
     0
  9
$CHAMFERA
 40
0.0
  9
$CHAMFERB
 40
0.0
  9
$CHAMFERC
 40
0.0
  9
$CHAMFERD
 40
0.0
  9
$SKPOLY
 70
     0
  9
$TDCREATE
 40
2460608.530403762
  9
$TDUCREATE
 40
2460608.405403762
  9
$TDUPDATE
 40
2460608.530403935
  9
$TDUUPDATE
 40
2460608.405403935
  9
$TDINDWG
 40
0.0000000116
  9
$TDUSRTIMER
 40
0.0000000116
  9
$USRTIMER
 70
     1
  9
$ANGBASE
 50
0.0
  9
$ANGDIR
 70
     0
  9
$PDMODE
 70
     0
  9
$PDSIZE
 40
-1.0
  9
$PLINEWID
 40
0.0
  9
$SPLFRAME
 70
     0
  9
$SPLINETYPE
 70
     6
  9
$SPLINESEGS
 70
     8
  9
$HANDSEED
  5
D2
  9
$SURFTAB1
 70
     6
  9
$SURFTAB2
 70
     6
  9
$SURFTYPE
 70
     6
  9
$SURFU
 70
     6
  9
$SURFV
 70
     6
  9
$UCSBASE
  2

  9
$UCSNAME
  2

  9
$UCSORG
 10
0.0
 20
0.0
 30
0.0
  9
$UCSXDIR
 10
1.0
 20
0.0
 30
0.0
  9
$UCSYDIR
 10
0.0
 20
1.0
 30
0.0
  9
$UCSORTHOREF
  2

  9
$UCSORTHOVIEW
 70
     0
  9
$UCSORGTOP
 10
0.0
 20
0.0
 30
0.0
  9
$UCSORGBOTTOM
 10
0.0
 20
0.0
 30
0.0
  9
$UCSORGLEFT
 10
0.0
 20
0.0
 30
0.0
  9
$UCSORGRIGHT
 10
0.0
 20
0.0
 30
0.0
  9
$UCSORGFRONT
 10
0.0
 20
0.0
 30
0.0
  9
$UCSORGBACK
 10
0.0
 20
0.0
 30
0.0
  9
$PUCSBASE
  2

  9
$PUCSNAME
  2

  9
$PUCSORG
 10
0.0
 20
0.0
 30
0.0
  9
$PUCSXDIR
 10
1.0
 20
0.0
 30
0.0
  9
$PUCSYDIR
 10
0.0
 20
1.0
 30
0.0
  9
$PUCSORTHOREF
  2

  9
$PUCSORTHOVIEW
 70
     0
  9
$PUCSORGTOP
 10
0.0
 20
0.0
 30
0.0
  9
$PUCSORGBOTTOM
 10
0.0
 20
0.0
 30
0.0
  9
$PUCSORGLEFT
 10
0.0
 20
0.0
 30
0.0
  9
$PUCSORGRIGHT
 10
0.0
 20
0.0
 30
0.0
  9
$PUCSORGFRONT
 10
0.0
 20
0.0
 30
0.0
  9
$PUCSORGBACK
 10
0.0
 20
0.0
 30
0.0
  9
$USERI1
 70
     0
  9
$USERI2
 70
     0
  9
$USERI3
 70
     0
  9
$USERI4
 70
     0
  9
$USERI5
 70
     0
  9
$USERR1
 40
0.0
  9
$USERR2
 40
0.0
  9
$USERR3
 40
0.0
  9
$USERR4
 40
0.0
  9
$USERR5
 40
0.0
  9
$WORLDVIEW
 70
     1
  9
$SHADEDGE
 70
     3
  9
$SHADEDIF
 70
    70
  9
$TILEMODE
 70
     1
  9
$MAXACTVP
 70
    64
  9
$PINSBASE
 10
0.0
 20
0.0
 30
0.0
  9
$PLIMCHECK
 70
     0
  9
$PEXTMIN
 10
1.0000000000E+20
 20
1.0000000000E+20
 30
1.0000000000E+20
  9
$PEXTMAX
 10
-1.0000000000E+20
 20
-1.0000000000E+20
 30
-1.0000000000E+20
  9
$PLIMMIN
 10
0.0
 20
0.0
  9
$PLIMMAX
 10
420.0
 20
297.0
  9
$UNITMODE
 70
     0
  9
$VISRETAIN
 70
     1
  9
$PLINEGEN
 70
     0
  9
$PSLTSCALE
 70
     1
  9
$TREEDEPTH
 70
  3020
  9
$CMLSTYLE
  2
Standard
  9
$CMLJUST
 70
     0
  9
$CMLSCALE
 40
20.0
  9
$PROXYGRAPHICS
 70
     1
  9
$MEASUREMENT
 70
     1
  9
$CELWEIGHT
370
    -1
  9
$ENDCAPS
280
     0
  9
$JOINSTYLE
280
     0
  9
$LWDISPLAY
290
     1
  9
$INSUNITS
 70
     4
  9
$HYPERLINKBASE
  1

  9
$STYLESHEET
  1

  9
$XEDIT
290
     1
  9
$CEPSNTYPE
380
     0
  9
$PSTYLEMODE
290
     1
  9
$FINGERPRINTGUID
  2
{ac31ea38-7442-455c-af78-e2750ada589a}
  9
$VERSIONGUID
  2
{FAEB1C32-E019-11D5-929B-00C0DF256EC4}
  9
$EXTNAMES
290
     1
  9
$PSVPSCALE
 40
0.0
  9
$OLESTARTUP
290
     0
  0
ENDSEC
  0
SECTION
  2
CLASSES
  0
CLASS
  1
ACDBDICTIONARYWDFLT
  2
AcDbDictionaryWithDefault
  3
ObjectDBX Classes
 90
        0
280
     0
281
     0
  0
CLASS
  1
VISUALSTYLE
  2
AcDbVisualStyle
  3
ObjectDBX Classes
 90
     4095
280
     0
281
     0
  0
CLASS
  1
MATERIAL
  2
AcDbMaterial
  3
ObjectDBX Classes
 90
     1153
280
     0
281
     0
  0
CLASS
  1
SCALE
  2
AcDbScale
  3
ObjectDBX Classes
 90
     1153
280
     0
281
     0
  0
CLASS
  1
TABLESTYLE
  2
AcDbTableStyle
  3
ObjectDBX Classes
 90
     4095
280
     0
281
     0
  0
CLASS
  1
MLEADERSTYLE
  2
AcDbMLeaderStyle
  3
ACDB_MLEADERSTYLE_CLASS
 90
     4095
280
     0
281
     0
  0
CLASS
  1
SUN
  2
AcDbSun
  3
SCENEOE
 90
     1153
280
     0
281
     0
  0
CLASS
  1
ACDBPLACEHOLDER
  2
AcDbPlaceHolder
  3
ObjectDBX Classes
 90
        0
280
     0
281
     0
  0
CLASS
  1
LAYOUT
  2
AcDbLayout
  3
ObjectDBX Classes
 90
        0
280
     0
281
     0
  0
ENDSEC
  0
SECTION
  2
TABLES
  0
TABLE
  2
VPORT
  5
8
330
0
100
AcDbSymbolTable
 70
     1
  0
VPORT
  5
29
330
8
100
AcDbSymbolTableRecord
100
AcDbViewportTableRecord
  2
*Active
 70
     0
 10
0.0
 20
0.0
 11
1.0
 21
1.0
 12
139.7
 22
107.95
 13
0.0
 23
0.0
 14
10.0
 24
10.0
 15
10.0
 25
10.0
 16
0.0
 26
0.0
 36
1.0
 17
0.0
 27
0.0
 37
0.0
 40
215.9
 41
1.2941176471
 42
50.0
 43
0.0
 44
0.0
 50
0.0
 51
0.0
 71
     0
 72
  2000
 73
     1
 74
     3
 75
     0
 76
     0
 77
     0
 78
     0
281
     0
 65
     1
110
0.0
120
0.0
130
0.0
111
1.0
121
0.0
131
0.0
112
0.0
122
1.0
132
0.0
 79
     0
146
0.0
  0
ENDTAB
  0
TABLE
  2
LTYPE
  5
5
330
0
100
AcDbSymbolTable
 70
     6
  0
LTYPE
  5
14
330
5
100
AcDbSymbolTableRecord
100
AcDbLinetypeTableRecord
  2
ByBlock
 70
     0
  3

 72
    65
 73
     0
 40
0.0
  0
LTYPE
  5
15
330
5
100
AcDbSymbolTableRecord
100
AcDbLinetypeTableRecord
  2
ByLayer
 70
     0
  3

 72
    65
 73
     0
 40
0.0
  0
LTYPE
  5
16
330
5
100
AcDbSymbolTableRecord
100
AcDbLinetypeTableRecord
  2
Continuous
 70
     0
  3
Solid line
 72
    65
 73
     0
 40
0.0
  0
LTYPE
  5
6E
330
5
100
AcDbSymbolTableRecord
100
AcDbLinetypeTableRecord
  2
HIDDEN
 70
     0
  3
Hidden __ __ __ __ __ __ __ __ __ __ __ __ __ __
 72
    65
 73
     2
 40
1.905
 49
1.27
 74
     0
 49
-0.635
 74
     0
  0
LTYPE
  5
6F
330
5
100
AcDbSymbolTableRecord
100
AcDbLinetypeTableRecord
  2
PHANTOM
 70
     0
  3
Phantom ______  __  __  ______  __  __  ______
 72
    65
 73
     6
 40
12.7
 49
6.35
 74
     0
 49
-1.27
 74
     0
 49
1.27
 74
     0
 49
-1.27
 74
     0
 49
1.27
 74
     0
 49
-1.27
 74
     0
  0
LTYPE
  5
70
330
5
100
AcDbSymbolTableRecord
100
AcDbLinetypeTableRecord
  2
CENTER
 70
     0
  3
Center ____ _ ____ _ ____ _ ____ _ ____ _ ____
 72
    65
 73
     4
 40
10.16
 49
6.35
 74
     0
 49
-1.27
 74
     0
 49
1.27
 74
     0
 49
-1.27
 74
     0
  0
LTYPE
  5
71
330
5
100
AcDbSymbolTableRecord
100
AcDbLinetypeTableRecord
  2
CENTERX2
 70
     0
  3
Center (2x) ________  __  ________  __  _____
 72
    65
 73
     4
 40
20.32
 49
12.7
 74
     0
 49
-2.54
 74
     0
 49
2.54
 74
     0
 49
-2.54
 74
     0
  0
LTYPE
  5
72
330
5
100
AcDbSymbolTableRecord
100
AcDbLinetypeTableRecord
  2
DOT2
 70
     0
  3
Dot (.5x) ........................................
 72
    65
 73
     2
 40
0.635
 49
0.0
 74
     0
 49
-0.635
 74
     0
  0
ENDTAB
  0
TABLE
  2
LAYER
  5
2
330
0
100
AcDbSymbolTable
 70
    17
  0
LAYER
  5
10
330
2
100
AcDbSymbolTableRecord
100
AcDbLayerTableRecord
  2
0
 70
     0
 62
     7
  6
Continuous
370
    -3
390
F
  0
LAYER
  5
73
330
2
100
AcDbSymbolTableRecord
100
AcDbLayerTableRecord
  2
FORMAT
 70
     0
 62
     7
  6
Continuous
370
    -3
390
F
  0
LAYER
  5
74
330
2
100
AcDbSymbolTableRecord
100
AcDbLayerTableRecord
  2
YARDIMCI_GEOMETRI
 70
     0
 62
    -6
  6
Continuous
290
     0
370
    -3
390
F
  0
LAYER
  5
75
330
2
100
AcDbSymbolTableRecord
100
AcDbLayerTableRecord
  2
SAYFA_CERCEVESI
 70
     0
 62
     7
  6
Continuous
370
    25
390
F
  0
LAYER
  5
76
330
2
100
AcDbSymbolTableRecord
100
AcDbLayerTableRecord
  2
ANTET
 70
     0
 62
     7
  6
Continuous
370
    -3
390
F
  0
LAYER
  5
77
330
2
100
AcDbSymbolTableRecord
100
AcDbLayerTableRecord
  2
OLCU
 70
     0
 62
   150
  6
Continuous
370
    -3
390
F
  0
LAYER
  5
78
330
2
100
AcDbSymbolTableRecord
100
AcDbLayerTableRecord
  2
METIN
 70
     0
 62
    96
  6
Continuous
370
    -3
390
F
  0
LAYER
  5
79
330
2
100
AcDbSymbolTableRecord
100
AcDbLayerTableRecord
  2
BALON
 70
     0
 62
     5
  6
Continuous
370
    -3
390
F
  0
LAYER
  5
7A
330
2
100
AcDbSymbolTableRecord
100
AcDbLayerTableRecord
  2
VURGU
 70
     0
 62
     7
  6
Continuous
370
    -3
390
F
  0
LAYER
  5
7B
330
2
100
AcDbSymbolTableRecord
100
AcDbLayerTableRecord
  2
SILIK
 70
     0
 62
     7
  6
Continuous
370
    -3
390
F
  0
LAYER
  5
7C
330
2
100
AcDbSymbolTableRecord
100
AcDbLayerTableRecord
  2
MODEL
 70
     0
 62
     7
  6
Continuous
370
    -3
390
F
  0
LAYER
  5
7D
330
2
100
AcDbSymbolTableRecord
100
AcDbLayerTableRecord
  2
DETAYLANDıRMA
 70
     0
 62
   190
  6
Continuous
370
    -3
390
F
  0
LAYER
  5
7E
330
2
100
AcDbSymbolTableRecord
100
AcDbLayerTableRecord
  2
TOLERANS
 70
     0
 62
   230
  6
Continuous
370
    -3
390
F
  0
LAYER
  5
7F
330
2
100
AcDbSymbolTableRecord
100
AcDbLayerTableRecord
  2
MERKEZ_CIZGILERI
 70
     0
 62
    30
  6
Continuous
370
    -3
390
F
  0
LAYER
  5
80
330
2
100
AcDbSymbolTableRecord
100
AcDbLayerTableRecord
  2
KESIT-DETAY_CIZGILERI
 70
     0
 62
     7
  6
Continuous
370
    -3
390
F
  0
LAYER
  5
81
330
2
100
AcDbSymbolTableRecord
100
AcDbLayerTableRecord
  2
\U+041E\U+0421\U+0415\U+0412\U+042B\U+0415
 70
     0
 62
     7
  6
Continuous
370
    -3
390
F
  0
LAYER
  5
82
330
2
100
AcDbSymbolTableRecord
100
AcDbLayerTableRecord
  2
\U+0412\U+041E\U+0414\U+042F\U+041D\U+042B\U+0415_\U+0417\U+041D\U+0410\U+041A\U+0418
 70
     0
 62
    11
  6
Continuous
370
    -3
390
F
  0
ENDTAB
  0
TABLE
  2
STYLE
  5
3
330
0
100
AcDbSymbolTable
 70
     1
  0
STYLE
  5
11
330
3
100
AcDbSymbolTableRecord
100
AcDbTextStyleTableRecord
  2
Standard
 70
     0
 40
0.0
 41
1.0
 50
0.0
 71
     0
 42
3.5
  3
txt
  4

  0
ENDTAB
  0
TABLE
  2
VIEW
  5
6
330
0
100
AcDbSymbolTable
 70
     0
  0
ENDTAB
  0
TABLE
  2
UCS
  5
7
330
0
100
AcDbSymbolTable
 70
     0
  0
ENDTAB
  0
TABLE
  2
APPID
  5
9
330
0
100
AcDbSymbolTable
 70
     1
  0
APPID
  5
12
330
9
100
AcDbSymbolTableRecord
100
AcDbRegAppTableRecord
  2
ACAD
 70
     0
  0
ENDTAB
  0
TABLE
  2
DIMSTYLE
  5
A
330
0
100
AcDbSymbolTable
 70
     1
100
AcDbDimStyleTable
  0
DIMSTYLE
105
27
330
A
100
AcDbSymbolTableRecord
100
AcDbDimStyleTableRecord
  2
ISO-25
 70
     0
 41
2.5
 42
0.625
 43
3.75
 44
1.25
 73
     0
 74
     0
 77
     1
 78
     8
140
2.5
141
2.5
143
0.0393700787
147
0.625
171
     3
172
     1
178
     0
271
     2
272
     2
274
     3
278
    44
283
     0
284
     8
340
11
  0
ENDTAB
  0
TABLE
  2
BLOCK_RECORD
  5
1
330
0
100
AcDbSymbolTable
 70
     3
  0
BLOCK_RECORD
  5
1F
330
1
100
AcDbSymbolTableRecord
100
AcDbBlockTableRecord
  2
*Model_Space
340
22
  0
BLOCK_RECORD
  5
1B
330
1
100
AcDbSymbolTableRecord
100
AcDbBlockTableRecord
  2
*Paper_Space
340
1E
  0
BLOCK_RECORD
  5
23
330
1
100
AcDbSymbolTableRecord
100
AcDbBlockTableRecord
  2
*Paper_Space0
340
26
  0
BLOCK_RECORD
  5
88
330
1
100
AcDbSymbolTableRecord
100
AcDbBlockTableRecord
  2
SW_CENTERMARKSYMBOL_0
340
0
102
{BLKREFS
331
93
102
}
  0
BLOCK_RECORD
  5
9E
330
1
100
AcDbSymbolTableRecord
100
AcDbBlockTableRecord
  2
SW_CENTERMARKSYMBOL_1
340
0
102
{BLKREFS
331
A9
102
}
  0
ENDTAB
  0
ENDSEC
  0
SECTION
  2
BLOCKS
  0
BLOCK
  5
20
330
1F
100
AcDbEntity
  8
0
100
AcDbBlockBegin
  2
*Model_Space
 70
     0
 10
0.0
 20
0.0
 30
0.0
  3
*Model_Space
  1

  0
ENDBLK
  5
21
330
1F
100
AcDbEntity
  8
0
100
AcDbBlockEnd
  0
BLOCK
  5
1C
330
1B
100
AcDbEntity
 67
     1
  8
0
100
AcDbBlockBegin
  2
*Paper_Space
 70
     0
 10
0.0
 20
0.0
 30
0.0
  3
*Paper_Space
  1

  0
ENDBLK
  5
1D
330
1B
100
AcDbEntity
 67
     1
  8
0
100
AcDbBlockEnd
  0
BLOCK
  5
24
330
23
100
AcDbEntity
  8
0
100
AcDbBlockBegin
  2
*Paper_Space0
 70
     0
 10
0.0
 20
0.0
 30
0.0
  3
*Paper_Space0
  1

  0
ENDBLK
  5
25
330
23
100
AcDbEntity
  8
0
100
AcDbBlockEnd
  0
BLOCK
  5
89
330
88
100
AcDbEntity
  8
0
100
AcDbBlockBegin
  2
SW_CENTERMARKSYMBOL_0
 70
     0
 10
0.0
 20
0.0
 30
0.0
  3
SW_CENTERMARKSYMBOL_0
  1

  0
LINE
  5
8B
330
88
100
AcDbEntity
  8
FORMAT
 62
     0
100
AcDbLine
 10
0.0
 20
0.0
 30
0.0
 11
0.0
 21
2.5
 31
0.0
  0
LINE
  5
8C
330
88
100
AcDbEntity
  8
FORMAT
 62
     0
100
AcDbLine
 10
0.0
 20
0.0
 30
0.0
 11
-2.5
 21
0.0
 31
0.0
  0
LINE
  5
8D
330
88
100
AcDbEntity
  8
FORMAT
 62
     0
100
AcDbLine
 10
0.0
 20
0.0
 30
0.0
 11
0.0
 21
-2.5
 31
0.0
  0
LINE
  5
8E
330
88
100
AcDbEntity
  8
FORMAT
 62
     0
100
AcDbLine
 10
0.0
 20
0.0
 30
0.0
 11
2.5
 21
0.0
 31
0.0
  0
LINE
  5
8F
330
88
100
AcDbEntity
  8
FORMAT
 62
     0
100
AcDbLine
 10
0.0
 20
5.0
 30
0.0
 11
0.0
 21
160.0
 31
0.0
  0
LINE
  5
90
330
88
100
AcDbEntity
  8
FORMAT
 62
     0
100
AcDbLine
 10
-5.0
 20
0.0
 30
0.0
 11
-160.0
 21
0.0
 31
0.0
  0
LINE
  5
91
330
88
100
AcDbEntity
  8
FORMAT
 62
     0
100
AcDbLine
 10
0.0
 20
-5.0
 30
0.0
 11
0.0
 21
-160.0
 31
0.0
  0
LINE
  5
92
330
88
100
AcDbEntity
  8
FORMAT
 62
     0
100
AcDbLine
 10
5.0
 20
0.0
 30
0.0
 11
160.0
 21
0.0
 31
0.0
  0
ENDBLK
  5
8A
330
88
100
AcDbEntity
  8
0
100
AcDbBlockEnd
  0
BLOCK
  5
9F
330
9E
100
AcDbEntity
  8
0
100
AcDbBlockBegin
  2
SW_CENTERMARKSYMBOL_1
 70
     0
 10
0.0
 20
0.0
 30
0.0
  3
SW_CENTERMARKSYMBOL_1
  1

  0
LINE
  5
A1
330
9E
100
AcDbEntity
  8
FORMAT
 62
     0
100
AcDbLine
 10
0.0
 20
0.0
 30
0.0
 11
0.0
 21
2.5
 31
0.0
  0
LINE
  5
A2
330
9E
100
AcDbEntity
  8
FORMAT
 62
     0
100
AcDbLine
 10
0.0
 20
0.0
 30
0.0
 11
-2.5
 21
0.0
 31
0.0
  0
LINE
  5
A3
330
9E
100
AcDbEntity
  8
FORMAT
 62
     0
100
AcDbLine
 10
0.0
 20
0.0
 30
0.0
 11
0.0
 21
-2.5
 31
0.0
  0
LINE
  5
A4
330
9E
100
AcDbEntity
  8
FORMAT
 62
     0
100
AcDbLine
 10
0.0
 20
0.0
 30
0.0
 11
2.5
 21
0.0
 31
0.0
  0
LINE
  5
A5
330
9E
100
AcDbEntity
  8
FORMAT
 62
     0
100
AcDbLine
 10
0.0
 20
5.0
 30
0.0
 11
0.0
 21
160.0
 31
0.0
  0
LINE
  5
A6
330
9E
100
AcDbEntity
  8
FORMAT
 62
     0
100
AcDbLine
 10
-5.0
 20
0.0
 30
0.0
 11
-160.0
 21
0.0
 31
0.0
  0
LINE
  5
A7
330
9E
100
AcDbEntity
  8
FORMAT
 62
     0
100
AcDbLine
 10
0.0
 20
-5.0
 30
0.0
 11
0.0
 21
-160.0
 31
0.0
  0
LINE
  5
A8
330
9E
100
AcDbEntity
  8
FORMAT
 62
     0
100
AcDbLine
 10
5.0
 20
0.0
 30
0.0
 11
160.0
 21
0.0
 31
0.0
  0
ENDBLK
  5
A0
330
9E
100
AcDbEntity
  8
0
100
AcDbBlockEnd
  0
ENDSEC
  0
SECTION
  2
ENTITIES
  0
LINE
  5
83
330
1F
100
AcDbEntity
  8
0
  6
Continuous
 62
     7
370
    25
100
AcDbLine
 10
37.1765957447
 20
-44.5914893617
 30
0.0
 11
389.1765957447
 21
-44.5914893617
 31
0.0
  0
LINE
  5
84
330
1F
100
AcDbEntity
  8
0
  6
Continuous
 62
     7
370
    25
100
AcDbLine
 10
389.1765957447
 20
270.4085106383
 30
0.0
 11
37.1765957447
 21
270.4085106383
 31
0.0
  0
CIRCLE
  5
85
330
1F
100
AcDbEntity
  8
0
  6
Continuous
 62
     7
370
    25
100
AcDbCircle
 10
37.1765957447
 20
112.9085106383
 30
0.0
 40
128.9
  0
CIRCLE
  5
86
330
1F
100
AcDbEntity
  8
0
  6
Continuous
 62
     7
370
    25
100
AcDbCircle
 10
37.1765957447
 20
112.9085106383
 30
0.0
 40
157.5
  0
LINE
  5
87
330
1F
100
AcDbEntity
  8
0
  6
Continuous
 62
     7
370
    25
100
AcDbLine
 10
389.1765957447
 20
270.4085106383
 30
0.0
 11
389.1765957447
 21
-44.5914893617
 31
0.0
  0
INSERT
  5
93
330
1F
100
AcDbEntity
  8
FORMAT
 62
     7
100
AcDbBlockReference
  2
SW_CENTERMARKSYMBOL_0
 10
37.1765957447
 20
112.9085106383
 30
0.0
  0
LINE
  5
94
330
1F
100
AcDbEntity
  8
0
  6
Continuous
 62
     7
370
    25
100
AcDbLine
 10
-645.2889470027
 20
270.4085106383
 30
0.0
 11
-1001.2889470027
 21
270.4085106383
 31
0.0
  0
LINE
  5
95
330
1F
100
AcDbEntity
  8
0
  6
Continuous
 62
     7
370
    25
100
AcDbLine
 10
-289.2889470027
 20
270.4085106383
 30
0.0
 11
-645.2889470027
 21
270.4085106383
 31
0.0
  0
LINE
  5
96
330
1F
100
AcDbEntity
  8
0
  6
Continuous
 62
     7
370
    25
100
AcDbLine
 10
-645.2889470027
 20
-44.5914893617
 30
0.0
 11
-289.2889470027
 21
-44.5914893617
 31
0.0
  0
LINE
  5
97
330
1F
100
AcDbEntity
  8
0
  6
Continuous
 62
     7
370
    25
100
AcDbLine
 10
-1001.2889470027
 20
-44.5914893617
 30
0.0
 11
-645.2889470027
 21
-44.5914893617
 31
0.0
  0
CIRCLE
  5
98
330
1F
100
AcDbEntity
  8
0
  6
Continuous
 62
     7
370
    25
100
AcDbCircle
 10
-645.2889470027
 20
112.9085106383
 30
0.0
 40
128.9
  0
CIRCLE
  5
99
330
1F
100
AcDbEntity
  8
0
  6
Continuous
 62
     7
370
    25
100
AcDbCircle
 10
-645.2889470027
 20
112.9085106383
 30
0.0
 40
157.5
  0
LINE
  5
9A
330
1F
100
AcDbEntity
  8
0
  6
Continuous
 62
     7
370
    25
100
AcDbLine
 10
-1001.2889470027
 20
112.9085106383
 30
0.0
 11
-1001.2889470027
 21
270.4085106383
 31
0.0
  0
LINE
  5
9B
330
1F
100
AcDbEntity
  8
0
  6
Continuous
 62
     7
370
    25
100
AcDbLine
 10
-1001.2889470027
 20
-44.5914893617
 30
0.0
 11
-1001.2889470027
 21
112.9085106383
 31
0.0
  0
LINE
  5
9C
330
1F
100
AcDbEntity
  8
0
  6
Continuous
 62
     7
370
    25
100
AcDbLine
 10
-289.2889470027
 20
112.9085106383
 30
0.0
 11
-289.2889470027
 21
270.4085106383
 31
0.0
  0
LINE
  5
9D
330
1F
100
AcDbEntity
  8
0
  6
Continuous
 62
     7
370
    25
100
AcDbLine
 10
-289.2889470027
 20
-44.5914893617
 30
0.0
 11
-289.2889470027
 21
112.9085106383
 31
0.0
  0
INSERT
  5
A9
330
1F
100
AcDbEntity
  8
FORMAT
 62
     7
100
AcDbBlockReference
  2
SW_CENTERMARKSYMBOL_1
 10
-645.2889470027
 20
112.9085106383
 30
0.0
  0
LINE
  5
AA
330
1F
100
AcDbEntity
  8
0
  6
Continuous
 62
     7
370
    25
100
AcDbLine
 10
194.6765957447
 20
974.7555119083
 30
0.0
 11
194.6765957447
 21
1173.2555119083
 31
0.0
  0
LINE
  5
AB
330
1F
100
AcDbEntity
  8
0
  6
Continuous
 62
     7
370
    25
100
AcDbLine
 10
194.6765957447
 20
461.2555119083
 30
0.0
 11
194.6765957447
 21
659.7555119083
 31
0.0
  0
LINE
  5
AC
330
1F
100
AcDbEntity
  8
0
  6
Continuous
 62
     7
370
    25
100
AcDbLine
 10
-120.3234042553
 20
1173.2555119083
 30
0.0
 11
-120.3234042553
 21
461.2555119083
 31
0.0
  0
LINE
  5
AD
330
1F
100
AcDbEntity
  8
0
  6
Continuous
 62
     7
370
    25
100
AcDbLine
 10
194.6765957447
 20
659.7555119083
 30
0.0
 11
389.1765957447
 21
659.7555119083
 31
0.0
  0
LINE
  5
AE
330
1F
100
AcDbEntity
  8
0
  6
Continuous
 62
     7
370
    25
100
AcDbLine
 10
389.1765957447
 20
974.7555119083
 30
0.0
 11
194.6765957447
 21
974.7555119083
 31
0.0
  0
LINE
  5
AF
330
1F
100
AcDbEntity
  8
0
  6
Continuous
 62
     7
370
    25
100
AcDbLine
 10
194.6765957447
 20
974.7555119083
 30
0.0
 11
37.1765957447
 21
817.2555119083
 31
0.0
  0
LINE
  5
B0
330
1F
100
AcDbEntity
  8
0
  6
Continuous
 62
     7
370
    25
100
AcDbLine
 10
37.1765957447
 20
817.2555119083
 30
0.0
 11
194.6765957447
 21
659.7555119083
 31
0.0
  0
LINE
  5
B1
330
1F
100
AcDbEntity
  8
0
  6
Continuous
 62
     7
370
    25
100
AcDbLine
 10
-120.3234042553
 20
1173.2555119083
 30
0.0
 11
194.6765957447
 21
1173.2555119083
 31
0.0
  0
LINE
  5
B2
330
1F
100
AcDbEntity
  8
0
  6
Continuous
 62
     7
370
    25
100
AcDbLine
 10
-120.3234042553
 20
461.2555119083
 30
0.0
 11
194.6765957447
 21
461.2555119083
 31
0.0
  0
LINE
  5
B3
330
1F
100
AcDbEntity
  8
0
  6
Continuous
 62
     7
370
    25
100
AcDbLine
 10
389.1765957447
 20
974.7555119083
 30
0.0
 11
389.1765957447
 21
659.7555119083
 31
0.0
  0
LINE
  5
B4
330
1F
100
AcDbEntity
  8
0
  6
Continuous
 62
     7
370
    25
100
AcDbLine
 10
874.3385291755
 20
-44.5914893617
 30
0.0
 11
1230.3385291755
 21
-44.5914893617
 31
0.0
  0
LINE
  5
B5
330
1F
100
AcDbEntity
  8
0
  6
Continuous
 62
     7
370
    25
100
AcDbLine
 10
518.3385291755
 20
-44.5914893617
 30
0.0
 11
874.3385291755
 21
-44.5914893617
 31
0.0
  0
LINE
  5
B6
330
1F
100
AcDbEntity
  8
0
  6
Continuous
 62
     7
370
    25
100
AcDbLine
 10
874.3385291755
 20
270.4085106383
 30
0.0
 11
518.3385291755
 21
270.4085106383
 31
0.0
  0
LINE
  5
B7
330
1F
100
AcDbEntity
  8
0
  6
Continuous
 62
     7
370
    25
100
AcDbLine
 10
1230.3385291755
 20
270.4085106383
 30
0.0
 11
874.3385291755
 21
270.4085106383
 31
0.0
  0
LINE
  5
B8
330
1F
100
AcDbEntity
  8
0
  6
Continuous
 62
     7
370
    25
100
AcDbLine
 10
1230.3385291755
 20
270.4085106383
 30
0.0
 11
1230.3385291755
 21
-44.5914893617
 31
0.0
  0
LINE
  5
B9
330
1F
100
AcDbEntity
  8
0
  6
Continuous
 62
     7
370
    25
100
AcDbLine
 10
518.3385291755
 20
270.4085106383
 30
0.0
 11
518.3385291755
 21
-44.5914893617
 31
0.0
  0
LINE
  5
BA
330
1F
100
AcDbEntity
  8
0
  6
Continuous
 62
     7
370
    25
100
AcDbLine
 10
-120.3234042553
 20
-175.3518871742
 30
0.0
 11
-120.3234042553
 21
-887.3518871742
 31
0.0
  0
LINE
  5
BB
330
1F
100
AcDbEntity
  8
0
  6
Continuous
 62
     7
370
    25
100
AcDbLine
 10
194.6765957447
 20
-373.8518871742
 30
0.0
 11
194.6765957447
 21
-175.3518871742
 31
0.0
  0
LINE
  5
BC
330
1F
100
AcDbEntity
  8
0
  6
Continuous
 62
     7
370
    25
100
AcDbLine
 10
194.6765957447
 20
-887.3518871742
 30
0.0
 11
194.6765957447
 21
-688.8518871742
 31
0.0
  0
LINE
  5
BD
330
1F
100
AcDbEntity
  8
0
  6
Continuous
 62
     7
370
    25
100
AcDbLine
 10
194.6765957447
 20
-688.8518871742
 30
0.0
 11
389.1765957447
 21
-688.8518871742
 31
0.0
  0
LINE
  5
BE
330
1F
100
AcDbEntity
  8
0
  6
Continuous
 62
     7
370
    25
100
AcDbLine
 10
389.1765957447
 20
-373.8518871742
 30
0.0
 11
194.6765957447
 21
-373.8518871742
 31
0.0
  0
LINE
  5
BF
330
1F
100
AcDbEntity
  8
0
  6
Continuous
 62
     7
370
    25
100
AcDbLine
 10
37.1765957447
 20
-531.3518871742
 30
0.0
 11
194.6765957447
 21
-688.8518871742
 31
0.0
  0
LINE
  5
C0
330
1F
100
AcDbEntity
  8
0
  6
Continuous
 62
     7
370
    25
100
AcDbLine
 10
194.6765957447
 20
-373.8518871742
 30
0.0
 11
37.1765957447
 21
-531.3518871742
 31
0.0
  0
LINE
  5
C1
330
1F
100
AcDbEntity
  8
0
  6
Continuous
 62
     7
370
    25
100
AcDbLine
 10
194.6765957447
 20
-887.3518871742
 30
0.0
 11
-120.3234042553
 21
-887.3518871742
 31
0.0
  0
LINE
  5
C2
330
1F
100
AcDbEntity
  8
0
  6
Continuous
 62
     7
370
    25
100
AcDbLine
 10
194.6765957447
 20
-175.3518871742
 30
0.0
 11
-120.3234042553
 21
-175.3518871742
 31
0.0
  0
LINE
  5
C3
330
1F
100
AcDbEntity
  8
0
  6
Continuous
 62
     7
370
    25
100
AcDbLine
 10
389.1765957447
 20
-373.8518871742
 30
0.0
 11
389.1765957447
 21
-688.8518871742
 31
0.0
  0
LINE
  5
C4
330
1F
100
AcDbEntity
  8
0
  6
Continuous
 62
     7
370
    25
100
AcDbLine
 10
866.5471488769
 20
-340.3388428779
 30
0.0
 11
693.5607349696
 21
-240.4759117715
 31
0.0
  0
LINE
  5
C5
330
1F
100
AcDbEntity
  8
0
  6
Continuous
 62
     7
370
    25
100
AcDbLine
 10
1197.0207631744
 20
-531.1171995804
 30
0.0
 11
1181.5727501771
 21
-522.1992515009
 31
0.0
  0
LINE
  5
C6
330
1F
100
AcDbEntity
  8
0
  6
Continuous
 62
     7
370
    25
100
AcDbLine
 10
536.0735345794
 20
-513.2813034214
 30
0.0
 11
1039.5335627843
 21
-803.9225912303
 31
0.0
  0
LINE
  5
C7
330
1F
100
AcDbEntity
  8
0
  6
Continuous
 62
     7
370
    25
100
AcDbLine
 10
1024.0343492671
 20
-613.1442345278
 30
0.0
 11
1194.1923360497
 21
-514.914119645
 31
0.0
  0
LINE
  5
C8
330
1F
100
AcDbEntity
  8
0
  6
Continuous
 62
     7
370
    25
100
AcDbLine
 10
1036.7051356595
 20
-242.1087279951
 30
0.0
 11
866.5471488769
 21
-340.3388428779
 31
0.0
  0
LINE
  5
C9
330
1F
100
AcDbEntity
  8
0
  6
Continuous
 62
     7
370
    25
100
AcDbLine
 10
866.5471488769
 20
-340.3388428779
 30
0.0
 11
866.5471488769
 21
-650.8044293729
 31
0.0
  0
ELLIPSE
  5
CA
330
1F
100
AcDbEntity
  8
0
  6
Continuous
 62
     7
370
    25
100
AcDbEllipse
 10
866.5471488769
 20
-522.1992515009
 30
0.0
 11
222.7386360737623
 21
2.273736754432321E-13
 31
0.0
210
0.0
220
0.0
230
1.0
 40
0.5773815452
 41
4.712388980384697
 42
5.49770587972005
  0
LWPOLYLINE
  5
CB
330
1F
100
AcDbEntity
  8
0
  6
Continuous
 62
     7
370
    25
100
AcDbPolyline
 90
      134
 70
   128
 43
0.0
 10
726.1864528114
 20
-312.5864687904
 10
726.0621985632
 20
-306.5848937597
 10
725.6897130783
 20
-300.740171491
 10
725.0698275174
 20
-295.0653438451
 10
724.2039250878
 20
-289.5730735815
 10
723.0939379562
 20
-284.2756161027
 10
721.742342938
 20
-279.1847921078
 10
720.1521559703
 20
-274.3119612159
 10
718.3269253818
 20
-269.6679966178
 10
716.2707239758
 20
-265.2632608147
 10
713.9881399416
 20
-261.1075824944
 10
711.4842666168
 20
-257.2102346002
 10
708.7646911217
 20
-253.5799136393
 10
705.8354818928
 20
-250.2247202771
 10
702.7031751413
 20
-247.1521412622
 10
699.3747602682
 20
-244.3690327196
 10
695.8576642687
 20
-241.8816048528
 10
692.1597351592
 20
-239.6954080861
 10
688.2892244655
 20
-237.8153206793
 10
684.2547688105
 20
-236.2455378424
 10
680.0653706422
 20
-234.989562375
 10
675.7303781462
 20
-234.0501968493
 10
671.2594643857
 20
-233.4295373571
 10
666.6626057176
 20
-233.1289688325
 10
661.9500595311
 20
-233.1491619614
 10
657.1323413594
 20
-233.490071685
 10
652.2202014156
 20
-234.1509373004
 10
647.2246006046
 20
-235.130284158
 10
642.1566860654
 20
-236.425926952
 10
637.0277662968
 20
-238.0349745968
 10
631.8492859244
 20
-239.9538366778
 10
626.6328001629
 20
-242.1782314634
 10
621.3899490316
 20
-244.7031954591
 10
616.1324313817
 20
-247.5230944829
 10
610.8719787907
 20
-250.6316362374
 10
605.6203293854
 20
-254.0218843504
 10
600.389201649
 20
-257.6862738528
 10
595.1902682731
 20
-261.6166280588
 10
590.0351301109
 20
-265.8041768111
 10
584.9352902914
 20
-270.2395760511
 10
579.9021285515
 20
-274.9129286688
 10
574.946875843
 20
-279.8138065871
 10
570.0805892724
 20
-284.9312740311
 10
565.3141274278
 20
-290.2539119297
 10
560.6581261494
 20
-295.7698433965
 10
556.1229747967
 20
-301.4667602317
 10
551.7187930656
 20
-307.3319503861
 10
547.4554084077
 20
-313.3523263271
 10
543.3423341014
 20
-319.5144542418
 10
539.3887480236
 20
-325.8045840134
 10
535.6034721709
 20
-332.2086799026
 10
531.9949529739
 20
-338.7124518675
 10
528.5712424497
 20
-345.3013874497
 10
525.3399802355
 20
-351.9607841575
 10
522.3083765407
 20
-358.6757822727
 10
519.4831960585
 20
-365.431398009
 10
516.8707428713
 20
-372.212556946
 10
514.4768463838
 20
-379.0041276666
 10
512.306848315
 20
-385.7909555207
 10
510.3655907791
 20
-392.5578964417
 10
508.6574054809
 20
-399.2898507383
 10
507.1861040495
 20
-405.9717967881
 10
505.954969534
 20
-412.5888245568
 10
504.9667490766
 20
-419.1261688679
 10
504.2236477838
 20
-425.56924235
 10
503.727323805
 20
-431.9036679869
 10
503.4788846331
 20
-438.115311198
 10
503.4788846331
 20
-444.1903113784
 10
503.727323805
 20
-450.1151128272
 10
504.2236477838
 20
-455.8764949958
 10
504.9667490766
 20
-461.4616019875
 10
505.954969534
 20
-466.8579712449
 10
507.1861040495
 20
-472.053561358
 10
508.6574054809
 20
-477.0367789337
 10
510.3655907791
 20
-481.796504465
 10
512.306848315
 20
-486.3221171431
 10
514.4768463838
 20
-490.6035185565
 10
516.8707428713
 20
-494.6311552245
 10
519.4831960585
 20
-498.3960399148
 10
522.3083765407
 20
-501.8897716975
 10
525.3399802355
 20
-505.1045546909
 10
528.5712424497
 20
-508.0332154571
 10
531.9949529739
 20
-510.6692190086
 10
535.6034721709
 20
-513.0066833909
 10
539.3887480236
 20
-515.040392807
 10
543.3423341014
 20
-516.7658092558
 10
547.4554084077
 20
-518.1790826586
 10
551.7187930656
 20
-519.2770594499
 10
556.1229747967
 20
-520.057289614
 10
560.6581261494
 20
-520.5180321524
 10
565.3141274278
 20
-520.6582589683
 10
570.0805892724
 20
-520.4776571609
 10
574.946875843
 20
-519.9766297234
 10
579.9021285515
 20
-519.1562946439
 10
584.9352902914
 20
-518.0184824108
 10
590.0351301109
 20
-516.5657319281
 10
595.1902682731
 20
-514.8012848502
 10
600.389201649
 20
-512.7290783484
 10
605.6203293854
 20
-510.3537363257
 10
610.8719787907
 20
-507.6805590989
 10
616.1324313817
 20
-504.7155115719
 10
621.3899490316
 20
-501.4652099249
 10
626.6328001629
 20
-497.9369068519
 10
631.8492859244
 20
-494.1384753767
 10
637.0277662968
 20
-490.0783912852
 10
642.1566860654
 20
-485.7657142126
 10
647.2246006046
 20
-481.2100674278
 10
652.2202014156
 20
-476.4216163601
 10
657.1323413594
 20
-471.4110459163
 10
661.9500595311
 20
-466.1895366383
 10
666.6626057176
 20
-460.7687397549
 10
671.2594643857
 20
-455.1607511838
 10
675.7303781462
 20
-449.3780845402
 10
680.0653706422
 20
-443.4336432145
 10
684.2547688105
 20
-437.3406915799
 10
688.2892244655
 20
-431.1128253939
 10
692.1597351592
 20
-424.7639414611
 10
695.8576642687
 20
-418.3082066242
 10
699.3747602682
 20
-411.760026152
 10
702.7031751413
 20
-405.1340115956
 10
705.8354818928
 20
-398.4449481843
 10
708.7646911217
 20
-391.7077618342
 10
711.4842666168
 20
-384.9374858425
 10
713.9881399416
 20
-378.1492273422
 10
716.2707239758
 20
-371.3581335924
 10
718.3269253818
 20
-364.5793581788
 10
720.1521559703
 20
-357.8280271999
 10
721.742342938
 20
-351.1192055151
 10
723.0939379562
 20
-344.4678631288
 10
724.2039250878
 20
-337.8888417868
 10
725.0698275174
 20
-331.3968218582
 10
725.6897130783
 20
-325.0062895779
 10
726.0621985632
 20
-318.7315047225
 10
726.1864528114
 20
-312.5864687904
  0
LWPOLYLINE
  5
CC
330
1F
100
AcDbEntity
  8
0
  6
Continuous
 62
     7
370
    25
100
AcDbPolyline
 90
       18
 70
   128
 43
0.0
 10
1229.6464810162
 20
-603.2277565993
 10
1229.522226768
 20
-597.2261815686
 10
1229.1497412831
 20
-591.3814592998
 10
1228.5298557223
 20
-585.706631654
 10
1227.6639532926
 20
-580.2143613903
 10
1226.553966161
 20
-574.9169039116
 10
1225.2023711429
 20
-569.8260799167
 10
1223.6121841751
 20
-564.9532490247
 10
1221.7869535866
 20
-560.3092844267
 10
1219.7307521806
 20
-555.9045486236
 10
1217.4481681464
 20
-551.7488703033
 10
1214.9442948216
 20
-547.8515224091
 10
1212.2247193266
 20
-544.2212014482
 10
1209.2955100977
 20
-540.866008086
 10
1206.1632033461
 20
-537.793429071
 10
1202.834788473
 20
-535.0103205285
 10
1199.3176924735
 20
-532.5228926617
 10
1197.0207631744
 20
-531.1171995804
  0
LWPOLYLINE
  5
CD
330
1F
100
AcDbEntity
  8
0
  6
Continuous
 62
     7
370
    25
100
AcDbPolyline
 90
       51
 70
   128
 43
0.0
 10
1039.5335627843
 20
-803.9225912303
 10
1042.8487762285
 20
-805.6816806159
 10
1046.8023623062
 20
-807.4070970647
 10
1050.9154366126
 20
-808.8203704675
 10
1055.1788212704
 20
-809.9183472587
 10
1059.5830030015
 20
-810.6985774229
 10
1064.1181543542
 20
-811.1593199613
 10
1068.7741556326
 20
-811.2995467772
 10
1073.5406174772
 20
-811.1189449698
 10
1078.4069040478
 20
-810.6179175323
 10
1083.3621567563
 20
-809.7975824528
 10
1088.3953184963
 20
-808.6597702197
 10
1093.4951583157
 20
-807.207019737
 10
1098.6502964779
 20
-805.4425726591
 10
1103.8492298538
 20
-803.3703661572
 10
1109.0803575902
 20
-800.9950241345
 10
1114.3320069955
 20
-798.3218469078
 10
1119.5924595865
 20
-795.3567993808
 10
1124.8499772365
 20
-792.1064977338
 10
1130.0928283677
 20
-788.5781946608
 10
1135.3093141292
 20
-784.7797631856
 10
1140.4877945016
 20
-780.7196790941
 10
1145.6167142702
 20
-776.4070020215
 10
1150.6846288094
 20
-771.8513552367
 10
1155.6802296204
 20
-767.062904169
 10
1160.5923695642
 20
-762.0523337252
 10
1165.4100877359
 20
-756.8308244471
 10
1170.1226339224
 20
-751.4100275638
 10
1174.7194925905
 20
-745.8020389926
 10
1179.190406351
 20
-740.019372349
 10
1183.525398847
 20
-734.0749310234
 10
1187.7147970153
 20
-727.9819793888
 10
1191.7492526704
 20
-721.7541132028
 10
1195.619763364
 20
-715.40522927
 10
1199.3176924735
 20
-708.9494944331
 10
1202.834788473
 20
-702.4013139609
 10
1206.1632033461
 20
-695.7752994044
 10
1209.2955100977
 20
-689.0862359932
 10
1212.2247193266
 20
-682.3490496431
 10
1214.9442948216
 20
-675.5787736514
 10
1217.4481681464
 20
-668.7905151511
 10
1219.7307521806
 20
-661.9994214013
 10
1221.7869535866
 20
-655.2206459877
 10
1223.6121841751
 20
-648.4693150088
 10
1225.2023711429
 20
-641.7604933239
 10
1226.553966161
 20
-635.1091509377
 10
1227.6639532926
 20
-628.5301295957
 10
1228.5298557223
 20
-622.038109667
 10
1229.1497412831
 20
-615.6475773868
 10
1229.522226768
 20
-609.3727925314
 10
1229.6464810162
 20
-603.2277565993
  0
LWPOLYLINE
  5
CE
330
1F
100
AcDbEntity
  8
0
  6
Continuous
 62
     7
370
    25
100
AcDbPolyline
 90
      121
 70
   128
 43
0.0
 10
705.9631988695
 20
-324.2611047895
 10
705.8382863564
 20
-318.8247453908
 10
705.4638911936
 20
-313.5475075932
 10
704.8410395723
 20
-308.4438559385
 10
703.9714386853
 20
-303.5277791814
 10
702.8574720484
 20
-298.8127519463
 10
701.5021929667
 20
-294.3116977954
 10
699.9093161658
 20
-290.036953805
 10
698.0832076105
 20
-286.0002367514
 10
696.0288725372
 20
-282.2126109953
 10
693.7519417357
 20
-278.6844581559
 10
691.258656115
 20
-275.4254486546
 10
688.5558495977
 20
-272.4445152101
 10
685.6509303886
 20
-269.7498283537
 10
682.5518606693
 20
-267.3487740347
 10
679.2671347745
 20
-265.2479333762
 10
675.8057559096
 20
-263.4530646365
 10
672.1772114734
 20
-261.9690874258
 10
668.3914470541
 20
-260.8000692227
 10
664.4588391686
 20
-259.9492142247
 10
660.390166822
 20
-259.4188545663
 10
656.1965819623
 20
-259.2104439265
 10
651.8895789141
 20
-259.3245535442
 10
647.4809628734
 20
-259.760870653
 10
642.9828175503
 20
-260.518199338
 10
638.4074720484
 20
-261.594463814
 10
633.7674670719
 20
-262.9867141147
 10
629.0755205518
 20
-264.691134179
 10
624.3444927873
 20
-266.7030523098
 10
619.5873511967
 20
-269.0169539795
 10
614.8171347745
 20
-271.6264969444
 10
610.0469183523
 20
-274.5245286285
 10
605.2897767618
 20
-277.7031057286
 10
600.5587489973
 20
-281.1535159857
 10
595.8668024772
 20
-284.8663020651
 10
591.2267975006
 20
-288.8312874783
 10
586.6514519988
 20
-293.0376044759
 10
582.1533066757
 20
-297.4737238353
 10
577.744690635
 20
-302.1274864617
 10
573.4376875868
 20
-306.9861367152
 10
569.2441027271
 20
-312.0363573733
 10
565.1754303804
 20
-317.2643061321
 10
561.242822495
 20
-322.6556535475
 10
557.4570580757
 20
-328.1956223109
 10
553.8285136395
 20
-333.8690277531
 10
550.3671347745
 20
-339.6603194641
 10
547.0824088797
 20
-345.5536239158
 10
543.9833391605
 20
-351.5327879704
 10
541.0784199513
 20
-357.5814231549
 10
538.375613434
 20
-363.6829505806
 10
535.8823278133
 20
-369.8206463849
 10
533.6053970118
 20
-375.9776875704
 10
531.5510619386
 20
-382.137198115
 10
529.7249533832
 20
-388.2822952285
 10
528.1320765824
 20
-394.3961356269
 10
526.7767975006
 20
-400.4619616985
 10
525.6628308637
 20
-406.4631474359
 10
524.7932299768
 20
-412.3832440059
 10
524.1703783555
 20
-418.2060248354
 10
523.7959831927
 20
-423.9155300869
 10
523.6710706796
 20
-429.4961104034
 10
523.7959831927
 20
-434.9324698021
 10
524.1703783555
 20
-440.2097075997
 10
524.7932299768
 20
-445.3133592543
 10
525.6628308637
 20
-450.2294360115
 10
526.7767975006
 20
-454.9444632465
 10
528.1320765824
 20
-459.4455173975
 10
529.7249533832
 20
-463.7202613879
 10
531.5510619386
 20
-467.7569784415
 10
533.6053970118
 20
-471.5446041975
 10
535.8823278133
 20
-475.072757037
 10
538.375613434
 20
-478.3317665383
 10
541.0784199513
 20
-481.3126999828
 10
543.9833391605
 20
-484.0073868392
 10
547.0824088797
 20
-486.4084411582
 10
550.3671347745
 20
-488.5092818166
 10
553.8285136395
 20
-490.3041505564
 10
557.4570580757
 20
-491.7881277671
 10
561.242822495
 20
-492.9571459702
 10
565.1754303804
 20
-493.8080009682
 10
569.2441027271
 20
-494.3383606265
 10
573.4376875868
 20
-494.5467712664
 10
577.744690635
 20
-494.4326616487
 10
582.1533066757
 20
-493.9963445399
 10
586.6514519988
 20
-493.2390158548
 10
591.2267975006
 20
-492.1627513789
 10
595.8668024772
 20
-490.7705010781
 10
600.5587489973
 20
-489.0660810139
 10
605.2897767618
 20
-487.054162883
 10
610.0469183523
 20
-484.7402612134
 10
614.8171347745
 20
-482.1307182485
 10
619.5873511967
 20
-479.2326865643
 10
624.3444927873
 20
-476.0541094643
 10
629.0755205518
 20
-472.6036992072
 10
633.7674670719
 20
-468.8909131277
 10
638.4074720484
 20
-464.9259277145
 10
642.9828175503
 20
-460.719610717
 10
647.4809628734
 20
-456.2834913576
 10
651.8895789141
 20
-451.6297287312
 10
656.1965819623
 20
-446.7710784776
 10
660.390166822
 20
-441.7208578196
 10
664.4588391686
 20
-436.4929090608
 10
668.3914470541
 20
-431.1015616454
 10
672.1772114734
 20
-425.561592882
 10
675.8057559096
 20
-419.8881874398
 10
679.2671347745
 20
-414.0968957288
 10
682.5518606693
 20
-408.2035912771
 10
685.6509303886
 20
-402.2244272224
 10
688.5558495977
 20
-396.175792038
 10
691.258656115
 20
-390.0742646123
 10
693.7519417357
 20
-383.9365688079
 10
696.0288725372
 20
-377.7795276225
 10
698.0832076105
 20
-371.6200170779
 10
699.9093161658
 20
-365.4749199644
 10
701.5021929667
 20
-359.361079566
 10
702.8574720484
 20
-353.2952534943
 10
703.9714386853
 20
-347.294067757
 10
704.8410395723
 20
-341.373971187
 10
705.4638911936
 20
-335.5511903574
 10
705.8382863564
 20
-329.8416851059
 10
705.9631988695
 20
-324.2611047895
  0
LWPOLYLINE
  5
CF
330
1F
100
AcDbEntity
  8
0
  6
Continuous
 62
     7
370
    25
100
AcDbPolyline
 90
      134
 70
   128
 43
0.0
 10
1226.8180538915
 20
-442.8035626261
 10
1226.6937996433
 20
-436.658526694
 10
1226.3213141583
 20
-430.3837418386
 10
1225.7014285975
 20
-423.9932095584
 10
1224.8355261679
 20
-417.5011896297
 10
1223.7255390363
 20
-410.9221682877
 10
1222.3739440181
 20
-404.2708259015
 10
1220.7837570503
 20
-397.5620042166
 10
1218.9585264619
 20
-390.8106732377
 10
1216.9023250559
 20
-384.0318978241
 10
1214.6197410217
 20
-377.2408040743
 10
1212.1158676968
 20
-370.452545574
 10
1209.3962922018
 20
-363.6822695823
 10
1206.4670829729
 20
-356.9450832322
 10
1203.3347762214
 20
-350.256019821
 10
1200.0063613483
 20
-343.6300052645
 10
1196.4892653488
 20
-337.0818247923
 10
1192.7913362393
 20
-330.6260899554
 10
1188.9208255456
 20
-324.2772060226
 10
1184.8863698906
 20
-318.0493398366
 10
1180.6969717223
 20
-311.956388202
 10
1176.3619792262
 20
-306.0119468764
 10
1171.8910654658
 20
-300.2292802328
 10
1167.2942067977
 20
-294.6212916616
 10
1162.5816606111
 20
-289.2004947782
 10
1157.7639424394
 20
-283.9789855002
 10
1152.8518024956
 20
-278.9684150564
 10
1147.8562016847
 20
-274.1799639887
 10
1142.7882871454
 20
-269.6243172039
 10
1137.6593673769
 20
-265.3116401313
 10
1132.4808870045
 20
-261.2515560398
 10
1127.2644012429
 20
-257.4531245646
 10
1122.0215501117
 20
-253.9248214916
 10
1116.7640324618
 20
-250.6745198446
 10
1111.5035798708
 20
-247.7094723176
 10
1106.2519304654
 20
-245.0362950909
 10
1101.0208027291
 20
-242.6609530682
 10
1095.8218693532
 20
-240.5887465663
 10
1090.666731191
 20
-238.8242994884
 10
1085.5668913715
 20
-237.3715490057
 10
1080.5337296316
 20
-236.2337367726
 10
1075.5784769231
 20
-235.4134016931
 10
1070.7121903525
 20
-234.9123742556
 10
1065.9457285079
 20
-234.7317724482
 10
1061.2897272295
 20
-234.8719992641
 10
1056.7545758767
 20
-235.3327418025
 10
1052.3503941456
 20
-236.1129719667
 10
1048.0870094878
 20
-237.2109487579
 10
1043.9739351815
 20
-238.6242221607
 10
1040.0203491037
 20
-240.3496386095
 10
1036.235073251
 20
-242.3833480256
 10
1032.6265540539
 20
-244.7208124079
 10
1029.2028435298
 20
-247.3568159594
 10
1025.9715813156
 20
-250.2854767256
 10
1022.9399776208
 20
-253.500259719
 10
1020.1147971386
 20
-256.9939915017
 10
1017.5023439514
 20
-260.758876192
 10
1015.1084474639
 20
-264.78651286
 10
1012.9384493951
 20
-269.0679142734
 10
1010.9971918592
 20
-273.5935269515
 10
1009.2890065609
 20
-278.3532524828
 10
1007.8177051296
 20
-283.3364700585
 10
1006.586570614
 20
-288.5320601716
 10
1005.5983501567
 20
-293.928429429
 10
1004.8552488638
 20
-299.5135364208
 10
1004.358924885
 20
-305.2749185893
 10
1004.1104857132
 20
-311.1997200381
 10
1004.1104857132
 20
-317.2747202185
 10
1004.358924885
 20
-323.4863634296
 10
1004.8552488638
 20
-329.8207890665
 10
1005.5983501567
 20
-336.2638625486
 10
1006.586570614
 20
-342.8012068597
 10
1007.8177051296
 20
-349.4182346284
 10
1009.2890065609
 20
-356.1001806783
 10
1010.9971918592
 20
-362.8321349749
 10
1012.9384493951
 20
-369.5990758958
 10
1015.1084474639
 20
-376.38590375
 10
1017.5023439514
 20
-383.1774744705
 10
1020.1147971386
 20
-389.9586334075
 10
1022.9399776208
 20
-396.7142491438
 10
1025.9715813156
 20
-403.4292472591
 10
1029.2028435298
 20
-410.0886439668
 10
1032.6265540539
 20
-416.677579549
 10
1036.235073251
 20
-423.1813515139
 10
1040.0203491037
 20
-429.5854474032
 10
1043.9739351815
 20
-435.8755771747
 10
1048.0870094878
 20
-442.0377050894
 10
1052.3503941456
 20
-448.0580810304
 10
1056.7545758767
 20
-453.9232711848
 10
1061.2897272295
 20
-459.62018802
 10
1065.9457285079
 20
-465.1361194868
 10
1070.7121903525
 20
-470.4587573855
 10
1075.5784769231
 20
-475.5762248294
 10
1080.5337296316
 20
-480.4771027477
 10
1085.5668913715
 20
-485.1504553654
 10
1090.666731191
 20
-489.5858546054
 10
1095.8218693532
 20
-493.7734033578
 10
1101.0208027291
 20
-497.7037575637
 10
1106.2519304654
 20
-501.3681470661
 10
1111.5035798708
 20
-504.7583951791
 10
1116.7640324618
 20
-507.8669369336
 10
1122.0215501117
 20
-510.6868359574
 10
1127.2644012429
 20
-513.2117999531
 10
1132.4808870045
 20
-515.4361947388
 10
1137.6593673769
 20
-517.3550568198
 10
1142.7882871454
 20
-518.9641044645
 10
1147.8562016847
 20
-520.2597472585
 10
1152.8518024956
 20
-521.2390941161
 10
1157.7639424394
 20
-521.8999597315
 10
1162.5816606111
 20
-522.2408694551
 10
1167.2942067977
 20
-522.261062584
 10
1171.8910654658
 20
-521.9604940594
 10
1176.3619792262
 20
-521.3398345672
 10
1180.6969717223
 20
-520.4004690415
 10
1184.8863698906
 20
-519.1444935741
 10
1188.9208255456
 20
-517.5747107372
 10
1192.7913362393
 20
-515.6946233304
 10
1196.4892653488
 20
-513.5084265637
 10
1200.0063613483
 20
-511.0209986969
 10
1203.3347762214
 20
-508.2378901544
 10
1206.4670829729
 20
-505.1653111394
 10
1209.3962922018
 20
-501.8101177772
 10
1212.1158676968
 20
-498.1797968163
 10
1214.6197410217
 20
-494.2824489221
 10
1216.9023250559
 20
-490.1267706018
 10
1218.9585264619
 20
-485.7220347987
 10
1220.7837570503
 20
-481.0780702007
 10
1222.3739440181
 20
-476.2052393087
 10
1223.7255390363
 20
-471.1144153138
 10
1224.8355261679
 20
-465.816957835
 10
1225.7014285975
 20
-460.3246875714
 10
1226.3213141583
 20
-454.6498599256
 10
1226.6937996433
 20
-448.8051376568
 10
1226.8180538915
 20
-442.8035626261
  0
LWPOLYLINE
  5
D0
330
1F
100
AcDbEntity
  8
0
  6
Continuous
 62
     7
370
    25
100
AcDbPolyline
 90
      121
 70
   128
 43
0.0
 10
1206.5947999496
 20
-431.1289266271
 10
1206.4698874365
 20
-425.5483463106
 10
1206.0954922737
 20
-419.8388410591
 10
1205.4726406523
 20
-414.0160602295
 10
1204.6030397654
 20
-408.0959636595
 10
1203.4890731285
 20
-402.0947779222
 10
1202.1337940468
 20
-396.0289518505
 10
1200.5409172459
 20
-389.9151114521
 10
1198.7148086906
 20
-383.7700143386
 10
1196.6604736173
 20
-377.610503794
 10
1194.3835428158
 20
-371.4534626086
 10
1191.8902571951
 20
-365.3157668042
 10
1189.1874506778
 20
-359.2142393785
 10
1186.2825314687
 20
-353.1656041941
 10
1183.1834617494
 20
-347.1864401395
 10
1179.8987358546
 20
-341.2931356877
 10
1176.4373569897
 20
-335.5018439767
 10
1172.8088125535
 20
-329.8284385345
 10
1169.0230481341
 20
-324.2884697711
 10
1165.0904402487
 20
-318.8971223557
 10
1161.0217679021
 20
-313.6691735969
 10
1156.8281830424
 20
-308.6189529389
 10
1152.5211799942
 20
-303.7603026853
 10
1148.1125639534
 20
-299.1065400589
 10
1143.6144186303
 20
-294.6704206995
 10
1139.0390731285
 20
-290.464103702
 10
1134.399068152
 20
-286.4991182888
 10
1129.7071216318
 20
-282.7863322094
 10
1124.9760938674
 20
-279.3359219523
 10
1120.2189522768
 20
-276.1573448522
 10
1115.4487358546
 20
-273.259313168
 10
1110.6785194324
 20
-270.6497702031
 10
1105.9213778419
 20
-268.3358685335
 10
1101.1903500774
 20
-266.3239504026
 10
1096.4984035572
 20
-264.6195303384
 10
1091.8583985807
 20
-263.2272800376
 10
1087.2830530789
 20
-262.1510155617
 10
1082.7849077558
 20
-261.3936868767
 10
1078.3762917151
 20
-260.9573697678
 10
1074.0692886669
 20
-260.8432601501
 10
1069.8757038071
 20
-261.05167079
 10
1065.8070314605
 20
-261.5820304484
 10
1061.8744235751
 20
-262.4328854463
 10
1058.0886591557
 20
-263.6019036494
 10
1054.4601147195
 20
-265.0858808601
 10
1050.9987358546
 20
-266.8807495999
 10
1047.7140099598
 20
-268.9815902584
 10
1044.6149402405
 20
-271.3826445773
 10
1041.7100210314
 20
-274.0773314337
 10
1039.0072145141
 20
-277.0582648782
 10
1036.5139288934
 20
-280.3172743795
 10
1034.2369980919
 20
-283.845427219
 10
1032.1826630187
 20
-287.633052975
 10
1030.3565544633
 20
-291.6697700286
 10
1028.7636776625
 20
-295.944514019
 10
1027.4083985807
 20
-300.44556817
 10
1026.2944319438
 20
-305.160595405
 10
1025.4248310569
 20
-310.0766721622
 10
1024.8019794355
 20
-315.1803238168
 10
1024.4275842728
 20
-320.4575616144
 10
1024.3026717597
 20
-325.8939210131
 10
1024.4275842728
 20
-331.4745013296
 10
1024.8019794355
 20
-337.1840065811
 10
1025.4248310569
 20
-343.0067874106
 10
1026.2944319438
 20
-348.9268839806
 10
1027.4083985807
 20
-354.928069718
 10
1028.7636776625
 20
-360.9938957897
 10
1030.3565544633
 20
-367.107736188
 10
1032.1826630187
 20
-373.2528333015
 10
1034.2369980919
 20
-379.4123438461
 10
1036.5139288934
 20
-385.5693850316
 10
1039.0072145141
 20
-391.7070808359
 10
1041.7100210314
 20
-397.8086082616
 10
1044.6149402405
 20
-403.8572434461
 10
1047.7140099598
 20
-409.8364075007
 10
1050.9987358546
 20
-415.7297119524
 10
1054.4601147195
 20
-421.5210036634
 10
1058.0886591557
 20
-427.1944091056
 10
1061.8744235751
 20
-432.734377869
 10
1065.8070314605
 20
-438.1257252844
 10
1069.8757038071
 20
-443.3536740432
 10
1074.0692886669
 20
-448.4038947013
 10
1078.3762917151
 20
-453.2625449548
 10
1082.7849077558
 20
-457.9163075812
 10
1087.2830530789
 20
-462.3524269406
 10
1091.8583985807
 20
-466.5587439382
 10
1096.4984035572
 20
-470.5237293514
 10
1101.1903500774
 20
-474.2365154308
 10
1105.9213778419
 20
-477.6869256879
 10
1110.6785194324
 20
-480.865502788
 10
1115.4487358546
 20
-483.7635344722
 10
1120.2189522768
 20
-486.373077437
 10
1124.9760938674
 20
-488.6869791067
 10
1129.7071216318
 20
-490.6988972375
 10
1134.399068152
 20
-492.4033173018
 10
1139.0390731285
 20
-493.7955676025
 10
1143.6144186303
 20
-494.8718320785
 10
1148.1125639534
 20
-495.6291607635
 10
1152.5211799942
 20
-496.0654778723
 10
1156.8281830424
 20
-496.1795874901
 10
1161.0217679021
 20
-495.9711768502
 10
1165.0904402487
 20
-495.4408171918
 10
1169.0230481341
 20
-494.5899621938
 10
1172.8088125535
 20
-493.4209439907
 10
1176.4373569897
 20
-491.9369667801
 10
1179.8987358546
 20
-490.1420980403
 10
1183.1834617494
 20
-488.0412573818
 10
1186.2825314687
 20
-485.6402030629
 10
1189.1874506778
 20
-482.9455162064
 10
1191.8902571951
 20
-479.9645827619
 10
1194.3835428158
 20
-476.7055732607
 10
1196.6604736173
 20
-473.1774204212
 10
1198.7148086906
 20
-469.3897946652
 10
1200.5409172459
 20
-465.3530776115
 10
1202.1337940468
 20
-461.0783336212
 10
1203.4890731285
 20
-456.5772794702
 10
1204.6030397654
 20
-451.8622522351
 10
1205.4726406523
 20
-446.946175478
 10
1206.0954922737
 20
-441.8425238234
 10
1206.4698874365
 20
-436.5652860257
 10
1206.5947999496
 20
-431.1289266271
  0
ENDSEC
  0
SECTION
  2
OBJECTS
  0
DICTIONARY
  5
C
330
0
100
AcDbDictionary
281
     1
  3
ACAD_GROUP
350
D
  3
ACAD_LAYOUT
350
1A
  3
ACAD_MLINESTYLE
350
17
  3
ACAD_PLOTSETTINGS
350
19
  3
ACAD_PLOTSTYLENAME
350
E
  3
ACAD_SCALELIST
350
47
  3
DWGPROPS
350
D1
  0
DICTIONARY
  5
D
102
{ACAD_REACTORS
330
C
102
}
330
C
100
AcDbDictionary
281
     1
  0
DICTIONARY
  5
1A
102
{ACAD_REACTORS
330
C
102
}
330
C
100
AcDbDictionary
281
     1
  3
Layout1
350
1E
  3
Layout2
350
26
  3
Model
350
22
  0
DICTIONARY
  5
17
102
{ACAD_REACTORS
330
C
102
}
330
C
100
AcDbDictionary
281
     1
  3
Standard
350
18
  0
DICTIONARY
  5
19
102
{ACAD_REACTORS
330
C
102
}
330
C
100
AcDbDictionary
281
     1
  0
ACDBDICTIONARYWDFLT
  5
E
102
{ACAD_REACTORS
330
C
102
}
330
C
100
AcDbDictionary
281
     1
  3
Normal
350
F
100
AcDbDictionaryWithDefault
340
F
  0
DICTIONARY
  5
47
102
{ACAD_REACTORS
330
C
102
}
330
C
100
AcDbDictionary
281
     1
  3
A0
350
48
  3
A1
350
49
  3
A2
350
4A
  3
A3
350
4B
  3
A4
350
4C
  3
A5
350
4D
  3
A6
350
4E
  3
A7
350
4F
  3
A8
350
50
  3
A9
350
51
  3
B0
350
52
  3
B1
350
53
  3
B2
350
54
  3
B3
350
55
  3
B4
350
56
  3
B5
350
57
  3
B6
350
58
  3
B7
350
59
  3
B8
350
5A
  3
B9
350
5B
  3
C0
350
5C
  3
C1
350
5D
  3
C2
350
5E
  3
C3
350
5F
  3
C4
350
60
  3
C5
350
61
  3
C6
350
62
  3
C7
350
63
  3
C8
350
64
  3
C9
350
65
  3
D0
350
66
  3
D1
350
67
  3
D2
350
68
  0
XRECORD
  5
D1
102
{ACAD_REACTORS
330
C
102
}
330
C
100
AcDbXrecord
280
     1
  1
DWGPROPS COOKIE
  2

  3

  4

  6

  7

  8
b.kav
  9

300
=
301
=
302
=
303
=
304
=
305
=
306
=
307
=
308
=
309
=
 40
0.0
 41
2460608.405403762
 42
2460608.405403935
  1

 90
        0
  0
LAYOUT
  5
1E
102
{ACAD_REACTORS
330
1A
102
}
330
1A
100
AcDbPlotSettings
  1

  2
none_device
  4

  6

 40
0.0
 41
0.0
 42
0.0
 43
0.0
 44
0.0
 45
0.0
 46
0.0
 47
0.0
 48
0.0
 49
0.0
140
0.0
141
0.0
142
1.0
143
1.0
 70
   688
 72
     1
 73
     0
 74
     5
  7

 75
    16
147
1.0
148
0.0
149
0.0
100
AcDbLayout
  1
Layout1
 70
     1
 71
     1
 10
0.0
 20
0.0
 11
420.0
 21
297.0
 12
0.0
 22
0.0
 32
0.0
 14
1.0000000000E+20
 24
1.0000000000E+20
 34
1.0000000000E+20
 15
-1.0000000000E+20
 25
-1.0000000000E+20
 35
-1.0000000000E+20
146
0.0
 13
0.0
 23
0.0
 33
0.0
 16
1.0
 26
0.0
 36
0.0
 17
0.0
 27
1.0
 37
0.0
 76
     0
330
1B
  0
LAYOUT
  5
26
102
{ACAD_REACTORS
330
1A
102
}
330
1A
100
AcDbPlotSettings
  1

  2
none_device
  4

  6

 40
0.0
 41
0.0
 42
0.0
 43
0.0
 44
0.0
 45
0.0
 46
0.0
 47
0.0
 48
0.0
 49
0.0
140
0.0
141
0.0
142
1.0
143
1.0
 70
   688
 72
     1
 73
     0
 74
     5
  7

 75
    16
147
1.0
148
0.0
149
0.0
100
AcDbLayout
  1
Layout2
 70
     1
 71
     2
 10
0.0
 20
0.0
 11
0.0
 21
0.0
 12
0.0
 22
0.0
 32
0.0
 14
0.0
 24
0.0
 34
0.0
 15
0.0
 25
0.0
 35
0.0
146
0.0
 13
0.0
 23
0.0
 33
0.0
 16
1.0
 26
0.0
 36
0.0
 17
0.0
 27
1.0
 37
0.0
 76
     0
330
23
  0
LAYOUT
  5
22
102
{ACAD_REACTORS
330
1A
102
}
330
1A
100
AcDbPlotSettings
  1

  2
none_device
  4
Letter_(8.50_x_11.00_Inches)
  6

 40
6.35
 41
6.35
 42
6.35000508
 43
6.35000508
 44
215.9
 45
279.4
 46
0.0
 47
0.0
 48
0.0
 49
0.0
140
0.0
141
0.0
142
1.0
143
1.0
 70
  1712
 72
     1
 73
     0
 74
     0
  7

 75
     0
147
1.0
148
0.0
149
0.0
100
AcDbLayout
  1
Model
 70
     1
 71
     0
 10
0.0
 20
0.0
 11
279.4
 21
215.9
 12
0.0
 22
0.0
 32
0.0
 14
0.0
 24
0.0
 34
0.0
 15
279.4
 25
215.9
 35
0.0
146
0.0
 13
0.0
 23
0.0
 33
0.0
 16
1.0
 26
0.0
 36
0.0
 17
0.0
 27
1.0
 37
0.0
 76
     0
330
1F
331
29
  0
MLINESTYLE
  5
18
102
{ACAD_REACTORS
330
17
102
}
330
17
100
AcDbMlineStyle
  2
Standard
 70
     0
  3

 62
   256
 51
90.0
 52
90.0
 71
     2
 49
0.5
 62
   256
  6
BYLAYER
 49
-0.5
 62
   256
  6
BYLAYER
  0
ACDBPLACEHOLDER
  5
F
102
{ACAD_REACTORS
330
E
102
}
330
E
  0
SCALE
  5
48
102
{ACAD_REACTORS
330
47
102
}
330
47
100
AcDbScale
 70
     0
300
1:1
140
1.0
141
1.0
290
     1
  0
SCALE
  5
49
102
{ACAD_REACTORS
330
47
102
}
330
47
100
AcDbScale
 70
     0
300
1:2
140
1.0
141
2.0
290
     0
  0
SCALE
  5
4A
102
{ACAD_REACTORS
330
47
102
}
330
47
100
AcDbScale
 70
     0
300
1:4
140
1.0
141
4.0
290
     0
  0
SCALE
  5
4B
102
{ACAD_REACTORS
330
47
102
}
330
47
100
AcDbScale
 70
     0
300
1:5
140
1.0
141
5.0
290
     0
  0
SCALE
  5
4C
102
{ACAD_REACTORS
330
47
102
}
330
47
100
AcDbScale
 70
     0
300
1:8
140
1.0
141
8.0
290
     0
  0
SCALE
  5
4D
102
{ACAD_REACTORS
330
47
102
}
330
47
100
AcDbScale
 70
     0
300
1:10
140
1.0
141
10.0
290
     0
  0
SCALE
  5
4E
102
{ACAD_REACTORS
330
47
102
}
330
47
100
AcDbScale
 70
     0
300
1:16
140
1.0
141
16.0
290
     0
  0
SCALE
  5
4F
102
{ACAD_REACTORS
330
47
102
}
330
47
100
AcDbScale
 70
     0
300
1:20
140
1.0
141
20.0
290
     0
  0
SCALE
  5
50
102
{ACAD_REACTORS
330
47
102
}
330
47
100
AcDbScale
 70
     0
300
1:30
140
1.0
141
30.0
290
     0
  0
SCALE
  5
51
102
{ACAD_REACTORS
330
47
102
}
330
47
100
AcDbScale
 70
     0
300
1:40
140
1.0
141
40.0
290
     0
  0
SCALE
  5
52
102
{ACAD_REACTORS
330
47
102
}
330
47
100
AcDbScale
 70
     0
300
1:50
140
1.0
141
50.0
290
     0
  0
SCALE
  5
53
102
{ACAD_REACTORS
330
47
102
}
330
47
100
AcDbScale
 70
     0
300
1:100
140
1.0
141
100.0
290
     0
  0
SCALE
  5
54
102
{ACAD_REACTORS
330
47
102
}
330
47
100
AcDbScale
 70
     0
300
2:1
140
2.0
141
1.0
290
     0
  0
SCALE
  5
55
102
{ACAD_REACTORS
330
47
102
}
330
47
100
AcDbScale
 70
     0
300
4:1
140
4.0
141
1.0
290
     0
  0
SCALE
  5
56
102
{ACAD_REACTORS
330
47
102
}
330
47
100
AcDbScale
 70
     0
300
8:1
140
8.0
141
1.0
290
     0
  0
SCALE
  5
57
102
{ACAD_REACTORS
330
47
102
}
330
47
100
AcDbScale
 70
     0
300
10:1
140
10.0
141
1.0
290
     0
  0
SCALE
  5
58
102
{ACAD_REACTORS
330
47
102
}
330
47
100
AcDbScale
 70
     0
300
100:1
140
100.0
141
1.0
290
     0
  0
SCALE
  5
59
102
{ACAD_REACTORS
330
47
102
}
330
47
100
AcDbScale
 70
     0
300
1/128" = 1'-0"
140
0.0078125
141
12.0
290
     0
  0
SCALE
  5
5A
102
{ACAD_REACTORS
330
47
102
}
330
47
100
AcDbScale
 70
     0
300
1/64" = 1'-0"
140
0.015625
141
12.0
290
     0
  0
SCALE
  5
5B
102
{ACAD_REACTORS
330
47
102
}
330
47
100
AcDbScale
 70
     0
300
1/32" = 1'-0"
140
0.03125
141
12.0
290
     0
  0
SCALE
  5
5C
102
{ACAD_REACTORS
330
47
102
}
330
47
100
AcDbScale
 70
     0
300
1/16" = 1'-0"
140
0.0625
141
12.0
290
     0
  0
SCALE
  5
5D
102
{ACAD_REACTORS
330
47
102
}
330
47
100
AcDbScale
 70
     0
300
3/32" = 1'-0"
140
0.09375
141
12.0
290
     0
  0
SCALE
  5
5E
102
{ACAD_REACTORS
330
47
102
}
330
47
100
AcDbScale
 70
     0
300
1/8" = 1'-0"
140
0.125
141
12.0
290
     0
  0
SCALE
  5
5F
102
{ACAD_REACTORS
330
47
102
}
330
47
100
AcDbScale
 70
     0
300
3/16" = 1'-0"
140
0.1875
141
12.0
290
     0
  0
SCALE
  5
60
102
{ACAD_REACTORS
330
47
102
}
330
47
100
AcDbScale
 70
     0
300
1/4" = 1'-0"
140
0.25
141
12.0
290
     0
  0
SCALE
  5
61
102
{ACAD_REACTORS
330
47
102
}
330
47
100
AcDbScale
 70
     0
300
3/8" = 1'-0"
140
0.375
141
12.0
290
     0
  0
SCALE
  5
62
102
{ACAD_REACTORS
330
47
102
}
330
47
100
AcDbScale
 70
     0
300
1/2" = 1'-0"
140
0.5
141
12.0
290
     0
  0
SCALE
  5
63
102
{ACAD_REACTORS
330
47
102
}
330
47
100
AcDbScale
 70
     0
300
3/4" = 1'-0"
140
0.75
141
12.0
290
     0
  0
SCALE
  5
64
102
{ACAD_REACTORS
330
47
102
}
330
47
100
AcDbScale
 70
     0
300
1" = 1'-0"
140
1.0
141
12.0
290
     0
  0
SCALE
  5
65
102
{ACAD_REACTORS
330
47
102
}
330
47
100
AcDbScale
 70
     0
300
1-1/2" = 1'-0"
140
1.5
141
12.0
290
     0
  0
SCALE
  5
66
102
{ACAD_REACTORS
330
47
102
}
330
47
100
AcDbScale
 70
     0
300
3" = 1'-0"
140
3.0
141
12.0
290
     0
  0
SCALE
  5
67
102
{ACAD_REACTORS
330
47
102
}
330
47
100
AcDbScale
 70
     0
300
6" = 1'-0"
140
6.0
141
12.0
290
     0
  0
SCALE
  5
68
102
{ACAD_REACTORS
330
47
102
}
330
47
100
AcDbScale
 70
     0
300
1'-0" = 1'-0"
140
12.0
141
12.0
290
     0
  0
ENDSEC
  0
EOF
